Guitar

You Deserve by Hillsong Guitar Tabs

Well since I’m playing this song and practicing for it, I thought I might as well blog on it just in case I forget in the future or if someone else wants to know how to play the lead guitar part.

This tab is based on Hillsong’s youtube video played by Nigel, Hillsong’s lead guitarist. Listen to the video for beat and timing. The original key is in Ab.

Intro

E|---------------------------
B|-9---11---13---11------14--
G|---------------------------
D|---------------------------
A|---------------------------
E|---------------------------

Verse

E|---------------------------
B|-9--------------------14--
G|---------------------------
D|---------------------------
A|---------------------------
E|---------------------------

Pre-Chorus
This part sounds mad. Took me a while to figure it out just from watching the video over and over again.

E|-----8-4---6-4---3-4---4------
B|-4-6-----6-----/4----6---6-4--
G|-------------------------------
D|-------------------------------
A|-------------------------------
E|-------------------------------

Pre-Chorus Ending

E|-4-4-4--6-6-6--8-8-8-----11-11-11--
B|-6-6-6--8-8-8--9-9-9-----13-13-13--
G|-6-6-6--8-8-8--10-10-10--13-13-13--
D|-----------------------------------
A|-----------------------------------
E|-----------------------------------

Bridge Intro

E|-11------------------------
B|---------------------------
G|---------------------------
D|---------------------------
A|---------------------------
E|---------------------------

Bridge Main

E|-8-------9---6-------------
B|---------------------------
G|---------------------------
D|---------------------------
A|---------------------------
E|---------------------------

Bridge Outro

E|-9--8--4--6----------------
B|---------------------------
G|---------------------------
D|---------------------------
A|---------------------------
E|---------------------------

Let me know if there’s anything wrong with it. Hope this helps.

Leave a Reply

Your email address will not be published. Required fields are marked *